Friends&Music

°°-*-_.*-_*Forum...dell'amicizia*_-*._-*-°°
 
IndicePortaleCalendarioGalleriaFAQCercaRegistrarsiLista utentiGruppiAccedi

Condividere | 
 

 BON JOVI

Vedere l'argomento precedente Vedere l'argomento seguente Andare in basso 
AutoreMessaggio
Satò
Admin


Maschile
Numero di messaggi : 39
Età : 35
Localisation : Napoli
Data d'iscrizione : 02.06.07

MessaggioOggetto: BON JOVI   Ven Giu 15, 2007 8:20 pm


_________________
Vorrei regalarti la serenità di un tramonto, la calma di un alba, ma in cuor mio so che il mar non si comanda, così impetuoso ed imprevedibile ma capace di un abbraccio dolce e magico come il tuo sorriso.... Smile


Ultima modifica di il Ven Giu 15, 2007 10:16 pm, modificato 2 volte
Tornare in alto Andare in basso
Vedere il profilo dell'utente http://Friends-music.italianoforum.com
Satò
Admin


Maschile
Numero di messaggi : 39
Età : 35
Localisation : Napoli
Data d'iscrizione : 02.06.07

MessaggioOggetto: Re: BON JOVI   Ven Giu 15, 2007 9:22 pm

It S My Life

Bon Jovi


Made by : Brian

Intro :

C5 v
|----------2-3-2-|---|
|------1-4-------|---|
|---555----------|-5-|
|---555----------|-5-|
|---333----------|-3-|
|----------------|---|
2x

|---------|
|---------|
|-5555----|
|-5555----|
|-3333----|
|---------|
This ain’t a song for
the broken hearted

2nd intro :

|-----------------------------------|
|-----------------------------------|
|---5555555555555555----------------|
|---5555555555555555--333333333333--|
|---3333333333333333--333333333333--|
|---------------------111111111111--|
And I ain’t just gonna be a face in the crowd

chorus


|------------------------------------|
|------------------------------------|
|--55555555---------8888888----------|
|--55555555-6666666-8888888-8888888--|
|--33333333-6666666-6666666-8888888--|
|-----------4444444---------6666666--|
a) It’s my life…
b) My heart is like an open highway…

|--------------------------------------|
|--------------------------------------|
|--5555555----------3333333--3---4--5--|
|--5555555-66666666-3333333--3---4--5--|
|--3333333-66666666-1111111--1---2--3--|
|----------44444444--------------------|
a)I just wanna live while I’m alive.




Solo:

16x v
|-----|----------------------------------|
|-----|----------------------------------|
|-----|----8-10b(12)-10b-10b-10b-10-8-10-|
|-----|-10-------------------------------|
|-5h6-|----------------------------------|
|-----|----------------------------------|

|---------|-------------------------------|
|---------|-------------------------------|
|---------|----8--------------------------|
|-10-8h10-|-10---10-\\0--------------------|
|---------|-------------------------------|
|---------|-------------------------------|

_________________
Vorrei regalarti la serenità di un tramonto, la calma di un alba, ma in cuor mio so che il mar non si comanda, così impetuoso ed imprevedibile ma capace di un abbraccio dolce e magico come il tuo sorriso.... Smile
Tornare in alto Andare in basso
Vedere il profilo dell'utente http://Friends-music.italianoforum.com
Satò
Admin


Maschile
Numero di messaggi : 39
Età : 35
Localisation : Napoli
Data d'iscrizione : 02.06.07

MessaggioOggetto: Re: BON JOVI   Ven Giu 15, 2007 9:26 pm

In These Arms v1
Bon Jovi
BASSLINE FOR IN THESE ARMS
As recorded by Bon Jovi
(From the 1994 LP recording CROSSROADS)

Transcribed by Mick Raisey



||----------------|-----------------|---------------|-------------------||
||o-2-2----2-2----|-----2---2-2-----|-2-2----2-2----|-----2---2-2------o||
||o------2--------|---2---2-----4-2-|------2--------|---2---2-----2-4--o||
||--------------0-|-4---------------|-------------0-|-4-----------------||


1.
|---------------|--------------|---------------|---------------|-----------------|| from
|---------------|--------------|---------------|-----------1---|-2-2----2-2-----o|| top
|-4-4----4-4----|h4p6-4-4-6-7--|------------4--|-2-----2-4---2-|------2---------o||
|------4------4-|--------------|-5-5--0-5-7----|-----2---------|-------------0---||


2. $
|---------------||------------------|-----------------|-----------------|------------------|
|---------------||o-----------------|-------------1---|---------------6-|------------------|
|-2--2--2-0-----||o-----------------|-2-2-2-2-2-4---2-|-4-4-4-4-4-6-7---|---------------2--|
|-----------4-2-||--0-0-0-0-0-2-4-0-|-----------------|-----------------|-5-5-5-0-5-4-2----|
I'd hold you


1. 2.
|-----------------|-----------------|-----------------|------------------||------------------|
|-----------------|-----------------|-----------------|-----------------o||------------------|
|-----------------|-4-4-4-4-4-6-7-4-|-2-2-2-2-2-2-2-2-|-0-0-0-0-0-2-4-0-o||---------------0--|
|-0-0-0-0-0-2-4-0-|-----------------|-----------------|------------------||-4-4-4-4-4-4-4----|


To Coda
|-----------------|-----------------------||----------------|-----------------|----------------|
|-----------------|-----------------------||o-2-2----2-2----|-----2---2-2-----|-2-2----2-2-----|
|-2-2-2-2-2-2-2-2-|-0-0-0---0-2-4-0-------||o------2--------|---2---2-----4-2-|------2---------|
|-----------------|-------0---------------||--------------0-|-4---------------|-------------0--|


D.S. al Coda
|------------------||---------------|----------------|---------------|-----------------|
|-----2---2-2-----o||---------------|----------------|---------------|-----------------|
|---2---2-----2-4-o||-4-4----4-4----|h4p6-4--4-4-6-7-|------------4--|-2-2-2-2-2-0-----|
|-4----------------||------4------4-|----------------|-5-5--0-5-7----|-------------4-2-|


&
|-----------------|------------|-----------------|-----------------|------------------|
|-2-2-2-2-2-2-2-2-|------------|-----------------|-----------------|------------------|
|-----------------|------------|-----------------|---------%-------|-------------4----|
|-----------------|--4---5--6--|-7-7-7-7-7-7-7-7-|-----------------|-5-5-5-5-5-7---5--|
1 + 3 4 Your clothes


|-----------------|-----------------|-----------------|-----------------|------------------|
|-----------------|-----------------|-----------------|-----------------|------------------|
|-----------------|-2-2-2-2-2-2-2-2-|--------%--------|-0-0-0-0-(0)--0--|-0-0-0-0-0-2-0-2--|
|-5-5-4-4-2-2-0-0-|-----------------|-----------------|-----------------|------------------|


1. 2.
||------------------|-----------------|-----------------|------------------||------------------|
||o-----------------|-----------------|-----------------|-----------------o||------------------|
||o-----------------|-2-2-2-2-2-2-2-2-|-4-4-4-4-4-4-4-4-|-0-0-0-0-0-2-4-0-o||------------------|
||--0-0-0-0-0-0-0-0-|-----------------|-----------------|------------------||-2-2-2-2-2-2-2-2--|
Solo

|-----------------|-----------------|-----------------|-----------------||-------------------|
|-----------------|-----------------|-----------------|-----------------||o------------------|
|-0-0-0-0-0-0-0-0-|-2-2-2-2-2-2-2-2-|--------%--------|--------%--------||o------------------|
|-----------------|-----------------|-----------------|-----------------||--0-0-0-0-0-2-4-0--|


1.
|-----------------|-----------------|-----------------|-----------------|------------------|
|-------------1---|---------------6-|-----------------|-----------------|------------------|
|-2-2-2-2-2-4---2-|-4-4-4-4-4-6-7---|-0-0-0-0-0-----2-|-----------------|-4-4-4-4-4-6-7-4--|
|-----------------|-----------------|-----------4-2---|-0-0-0-0-0-2-4-0-|------------------|


2.
|-----------------|------------------||-----------------|-----------------|------------------|
|-----------------|-----------------o||-----------------|-----------------|------------------|
|-2-2-2-2-2-2-2-2-|-0-0-0-0-0-2-4-0-o||-----------------|-2-2-2-2-2-2-2-2-|-0-0-0-0-0-2-4-0--|
|-----------------|------------------||-4-4-4-4-4-4-4-5-|-----------------|------------------|


||------------------|-----------------|-----------------|-------------------||
||o-----------------|-----------------|-----------------|------------------o||
||o-----------------|-2-2-2-2-2-2-2-2-|-4-4-4-4-4-4-4-4-|-0-0-0-0-0-0-0-0--o||
||--0-0-0-0-0-0-0-0-|-----------------|-----------------|-------------------||
repeat & fade

--------------------------------------------------------------------------------
--------------------------------------------------------------------------------
******************************************************************************************
* This file was generated with Power Tab Editor - Get it at
******************************************************************************************

_________________
Vorrei regalarti la serenità di un tramonto, la calma di un alba, ma in cuor mio so che il mar non si comanda, così impetuoso ed imprevedibile ma capace di un abbraccio dolce e magico come il tuo sorriso.... Smile
Tornare in alto Andare in basso
Vedere il profilo dell'utente http://Friends-music.italianoforum.com
Contenuto sponsorizzato




MessaggioOggetto: Re: BON JOVI   Oggi a 12:03 pm

Tornare in alto Andare in basso
 
BON JOVI
Vedere l'argomento precedente Vedere l'argomento seguente Tornare in alto 
Pagina 1 di 1

Permesso di questo forum:Non puoi rispondere agli argomenti in questo forum
Friends&Music :: Music Group :: Tablature spartiti....-
Andare verso: